User Tools

Site Tools


tabs:cobra_tattoo

Cobra Tattoo

tabbed by mike/howardfinkel483 and Rosa

fill before A7 at end of line
e--------------
B--------------
G------0-------
D--0h2---------
A--------0-----
E--------------

C (run1)
e--------------------
B--------------------
G--------------------
D--------------------
A--3-2-0----0-2---0--
E--------3-----------

C (run2)
e-------------------
B-------------------
G-------------------
D---------------(0)-
A--3-2-0----0-2-----
E--------3----------

A7                    C#m     
sun just clearing the treeline 
Bm             A7(fill)
when my day begins.
A7                    C#m
slippery ice on the bridges,
Bm                         A7(fill)
northeastern wind coming in.

you will bruise my head,
I will strike your heel.
drive past woods of northern pine,
try not to let go of the wheel.

         C
dream at night
C (run1)             A7
girl with a cobra tattoo 
       C
on her arm,
C (run2)                         A7
it's head flaring out like a parachute.

A7 C#m B#m A7(fill) x2

prisms in the dew drops
in the underbrush
skatecase sailor's purses floating
down in the black needlerush

higher than the stars
I will set my throne.
God does not need Abraham,
God can raise children from stones.

dream at night
girl with a cobra tattoo
and try to hear
C                              A7
the garbled transmissions come through.

Outro:
Dsus2 (x00230) F#m A7 x2, Dsus2 (x00230) F#m A7(fill) x2, 
then play the fill one more time ending on the 2nd fret of the B string
tabs/cobra_tattoo.txt · Last modified: 2017/06/07 13:22 by acab_ftp