User Tools

Site Tools


tabs:cobra_tattoo

Cobra Tattoo

tabbed by mike/howardfinkel483

fill before A at end of line
e--------------
B--------------
G--------------
D--0h2---------
A------0-------
E--------------

C (run1) (melody 1)
e--------------------
B--------------------
G--------------------
D--------------------
A--3-2-0----0-2---0--
E--------3-----------

(sounds funny if you finish it)
C (run2) (melody 2)
e-----------------------
B-----------------------
G-----------------------
D----------------0------
A--3-2-0----0-2----4-4--
E--------3--------------

A                     C#m     
sun just clearing the treeline 
Bm             A(fill)
when my day begins.
A                     C#m
slippery ice on the bridges,
Bm                         A(fill)
northeastern wind coming in.


A                   C#m
you will bruise my head,
Bm                  A(fill)
I will strike your heel.
A                    C#m
drive past woods of northern pine,
Bm                         A(fill)
try not to let go of the wheel.


            C
dream at night
C (run1                  A
girl with a cobra tattoo 
         C
on her arm,
C (run2)                              A
it's head flaring out like a parachute.


prisms in the dew drops
in the underbrush
skatecase sailor's purses floating
down in the black needlerush


higher than the stars
I will set my throne.
God does not need Abraham,
God can raise children from stones.


dream at night
girl with a cobra tattoo
and try to hear
the garbled transmissions come through.

tabs/cobra_tattoo.txt · Last modified: 2008/08/02 23:12 by bill