User Tools

Site Tools


tabs:flashing_lights
Flashing Lights
-tabbed by mike

to start you off, fool around with this a while

e----------------------
B----------------------
G-------------------0--
D------0-2-0--------0--
A--2-3-------3-2----2--
E-3-3-3-3-3-3-3-----3--
  G

I am wearing..
D---2-2-2-2-2-2-2-0----------
A--0-0-0-0-0-0-0-0--2-2-etc--
E-----------------3--3-------
   A(m)          G

I know you're as good as gone..
D---2-2-2-2--3-3-3-3--------0-----
A--0-0-0-0--1-1-1-1----2--3---etc-
E---------------------3--3-3------
   A        Bb        G

Empty promises..
D---2-2-2-2---4-4-4-4-----------------
A--3-3-3-3---5-5-5-5----2-3--etc------
E----------------------3-3------------
   C         D         G


I am wearing a white long sleeved button-down. 
the pink colors behind the clouds tonight 
mirror the softer shades of your nightgown 
as the neuro-transmitters go crazy inside of me 
you swear you're leaving town 
empty promises empty promises. 

I am watching the way the wind seems to pass straight through your body. 
when you run your fingernail along my neck, you spill some water on me. 

you say you're as good as gone 
well, don't look now but here comes the dawn 
empty promises empty promises. 
empty promises empty promises.
tabs/flashing_lights.txt · Last modified: 2007/12/05 14:26 by carnac44