User Tools

Site Tools


tabs:going_to_bristol

Going to Bristol

  B                         A6                             

E-2---2---------------------2---2----2-2-2-0--------------- 
B-4---4--4-4-5-4------------2---2-------------4-5-4-2------ 
G-4---4----------3-4-4--4---2---2---------------------4-3-- 
D-4---4---------------------2---2-------------------------- 
A-2---2---------------------0---0--------------------------  
E----------------------------------------------------------

  B                        A6                                    B

E-2---2--------------------2---2----2-2-2-0----------------------2---2-  
B-4---4--4-4-5-4-----------2---2-------------4-5-4-4-5p4-2-0-----4---4- 
G-4---4----------3-4-4—-4--2---2---------------------------------4---4-  
D-4---4--------------------2---2---------------------------------4---4-  
A-2---2--------------------0---0---------------------------------2---2- 
E----------------------------------------------------------------------


B 
I looked you up and down 
A6
I liked everything I saw 
B 
From the fragile outline of your hips
A6
To the trembling movement in your jaw
B                                        Bmaj7
But when the coffee cup shattered on the kitchen floor
A                          E
You said that you couldn't take it anymore
B
I knew you were leaving
A                     E       B
I knew you were going to Bristol


I watched you pack your bags
I saw you head out to the door
But when the key broke off in the deadbolt lock
You said that you couldn't take it anymore
That was the second time you said that in one day
Why don't you just sit still, it's going to be OK
Going to Bristol


The chords during the chorus sound very nice as power chords, but a full barre will do as well.

This song can also be done in the key of C really well, just alternate between C and F7, and at the chorus use a G and Em
tabs/going_to_bristol.txt · Last modified: 2011/08/08 11:17 by losvci