User Tools

Site Tools


tabs:night_of_the_mules
===== Night Of The Mules =====
tabbed by Rosa

The recording is about a half step down from this. The mutes sound best if done with your fretting hand, 
but you can palm mute if you can make it sound ok. Also, it's hard to tell whether or not, where I've 
tabbed Cadd5 and Am7, you should actually just keep muting all the strings except the high e string.

The variations in the muting pattern and the random F chord in the outro make me think that John hadn't 
quite figured out how he wanted to play this when he recorded it, so feel free to do what's easiest for you. 

Riff:

    C        mute     Cadd5            Am       mute     Am7
e -0-0-0-0--x-x-x-x--3-3-3-3-3-3-3-0--0-0-0-0--x-x-x-x--3-3-3-3-3-3-3-0--:|
B -1-1-1-1--x-x-x-x--1-1-1-1-1-1-1-0--1-1-1-1--x-x-x-x--1-1-1-1-1-1-1-0--:|
G -0-0-0-0--x-x-x-x--0-0-0-0-0-0-0-0--2-2-2-2--x-x-x-x--2-2-2-2-2-2-2-0--:|
D -2-2-2-2--x-x-x-x--2-2-2-2-2-2-2-0--2-2-2-2--x-x-x-x--2-2-2-2-2-2-2-0--:|
A -3-3-3-3--x-x-x-x--3-3-3-3-3-3-3-0--0-0-0-0--x-x-x-x--0-0-0-0-0-0-0-0--:|
E -----------------------------------------------------------------------:|

Verse Pattern (play where the chords just say "C  Am"):

    C        mute     C                Am       mute     Am
e -0-0-0-0--x-x-x-x--0-0-0-0-0-0-0-0--0-0-0-0--x-x-x-x--0-0-0-0-0-0-0-0--:|
B -1-1-1-1--x-x-x-x--1-1-1-1-1-1-1-0--1-1-1-1--x-x-x-x--1-1-1-1-1-1-1-0--:|
G -0-0-0-0--x-x-x-x--0-0-0-0-0-0-0-0--2-2-2-2--x-x-x-x--2-2-2-2-2-2-2-0--:|
D -2-2-2-2--x-x-x-x--2-2-2-2-2-2-2-0--2-2-2-2--x-x-x-x--2-2-2-2-2-2-2-0--:|
A -3-3-3-3--x-x-x-x--3-3-3-3-3-3-3-0--0-0-0-0--x-x-x-x--0-0-0-0-0-0-0-0--:|
E -----------------------------------------------------------------------:|

Riff x2

C
the street lights gave off a yellow glow
Am
on the holly and the mistletoe
C
you could feel the rain, coming down.
Am 
and quiet starlight, hardened the ground.

D                                     G
till the street shone like a diamond, look sister
C                F
here comes a new genuine disaster.
C                F      mute
clip-clop up the street,
C             mute      G
see the rain, feel the sleet, yeah.

Riff x1

the cold air, unpredictable weather,
ten or twenty of us, huddled together,
hearing the braying, growing louder
snowflakes falling fine white powder.

D   mute   G   mute
here come, the new kings
C          mute          F
the hooves clack and the metal sings
C        mute     F
clip-clop up the street 
C            mute       G
see the rain, feel the sleet, yeah.

Outro:
    C        mute     Cadd5            F       mute     F
e -0-0-0-0--x-x-x-x--3-3-3-3-3-3-3-0--1-1-1-1--x-x-x-x--1-1-1-1-1--------|
B -1-1-1-1--x-x-x-x--1-1-1-1-1-1-1-0--1-1-1-1--x-x-x-x--1-1-1-1-1-0-3-1--|
G -0-0-0-0--x-x-x-x--0-0-0-0-0-0-0-0--2-2-2-2--x-x-x-x--2-2-2-2-2-2-2-2--|
D -2-2-2-2--x-x-x-x--2-2-2-2-2-2-2-0--3-3-3-3--x-x-x-x--3-3-3-3-3-3-0-3--|
A -3-3-3-3--x-x-x-x--3-3-3-3-3-3-3-0--3-3-3-3--x-x-x-x--3-3-3-3-3-3-3-3--|
E -----------------------------------------------------------------------|

    C        mute     Cadd5            Am       mute
e -0-0-0-0--x-x-x-x--3-3-3-3-3-3-3-0--0-0-0-0--x-x-x-x-x-x-x-x-x-x-x-x--|
B -1-1-1-1--x-x-x-x--1-1-1-1-1-1-1-0--1-1-1-1--x-x-x-x-x-x-x-x-x-x-x-x--|
G -0-0-0-0--x-x-x-x--0-0-0-0-0-0-0-0--2-2-2-2--x-x-x-x-x-x-x-x-x-x-x-x--|
D -2-2-2-2--x-x-x-x--2-2-2-2-2-2-2-0--2-2-2-2--x-x-x-x-x-x-x-x-x-x-x-x--|
A -3-3-3-3--x-x-x-x--3-3-3-3-3-3-3-0--0-0-0-0--x-x-x-x-x-x-x-x-x-x-x-x--|
E ----------------------------------------------------------------------|
tabs/night_of_the_mules.txt · Last modified: 2017/04/29 19:00 by acab_ftp