User Tools

Site Tools


tabs:original_air-blue_gown
"Original Air-Blue Gown"
The Mountain Goats
Full Force Galesburg
Tabbed by Jon A.

Open Db (Db/Ab/Db/F/Ab/Db)

Chords:
Ab: 777xxx
Gb: 555xxx
Db: 000xxx
Eb: 222xxx
Db (full): 00000x

Intro (0:00)

Db|-------------------------------------------------------------------
Ab|-------------------------------------------------------------------
F |-------------------------------------------------------------------
Db|---------------------0-----0-------------------------0-----0-------
Ab|-0-----------------------------------------------------------------
Db|-----0-----0---0-5h7---5h7---5h7-5---0-----5---0-5h7---5h7---5h7---

    1 + 2 + 3 + 4 + 1 + 2 + 3 + 4 + 1 + 2 + 3 + 4 + 1 + 2 + 3 + 4 +

(0:08)
Db|-------------------------------------------------------------------
Ab|-------------------------------------------------------------------
F |-----0-------------------------------------------------------------
Db|---------------------0-----0---------0---------------------0-------
Ab|-----------0-------------------------------------------------------
Db|-0-------------0-5h7---5h7---5h7-5---------5---0-5h7---5h7---5h7---

    1 + 2 + 3 + 4 + 1 + 2 + 3 + 4 + 1 + 2 + 3 + 4 + 1 + 2 + 3 + 4 +


Verse (0:17)

          Rain all burned away...      
Db|-------------------------------------------------------------------
Ab|-------------------------------------------------------------------
F |-------------------------------------------------------------------
Db|-----0-------------0-------0---------0-------------0-------0-------
Ab|-------------------------------------------------------------------
Db|-0-------------7-----7---------7-5---------5---------5---------5---

    1 + 2 + 3 + 4 + 1 + 2 + 3 + 4 + 1 + 2 + 3 + 4 + 1 + 2 + 3 + 4 +


(0:25)     Plums...                       Drying...
Db|-------------------------------------------------------------------
Ab|-------------------------------------------------------------------
F |---------------------------0---------------------------------------
Db|-------------------------------------------0---------0-------------
Ab|-------------------------------------------------------------------
Db|-7---0-----0---7---------------7-5---0---------5-----------5---5---

    1 + 2 + 3 + 4 + 1 + 2 + 3 + 4 + 1 + 2 + 3 + 4 + 1 + 2 + 3 + 4 +

(0:33)           
Db|-------------------------------------------------------------------
Ab|-------------------------------------------------------------------
F |-------------------------------------------------------------------
Db|-----------0---------0-----0-------------------------0-----0-------
Ab|-------------------------------------------------------------------
Db|-7---0---------0-5h7---5h7---5h7-0---5-----0---5-5h7---5h7---5h7---

    1 + 2 + 3 + 4 + 1 + 2 + 3 + 4 + 1 + 2 + 3 + 4 + 1 + 2 + 3 + 4 +


(0:41)  Bright...                       I can...
Db|-------------------------------------------------------------------
Ab|-------------------------0-----------------------------------------
F |---------------------------0---------------------------------------
Db|-----0---------0-------------0-----------------------------5-------
Ab|-----------------------------------------------------x-x---5-------
Db|-0---------7---------7-----------5---0-----5---5---5-----5-----5---

    1 + 2 + 3 + 4 + 1 + 2 + 3 + 4 + 1 + 2 + 3 + 4 + 1 + 2 + 3 + 4 +


(0:49) Dark blue...                       I am...               on the
Db|-------------------------------------------------------------------
Ab|-------------------------------------------------------------------
F |-------------------------------------------------------------------
Db|-0---------0---------------0---0-5-----------------------0-0-0-0---
Ab|-0---0-----0-------------------0-5-------------5---------0-0-0-0---
Db|-----0-----0---7---7-7-----------5---5---0-5---5---5-5-5-0-0-0-0---

    1 + 2 + 3 + 4 + 1 + 2 + 3 + 4 + 1 + 2 + 3 + 4 + 1 + 2 + 3 + 4 +


           Ab
And on the television,
Gb
Black and white footage of the young Cassius Clay
      Db
My god, my god, my god
             Ab
He was something

Eb
Fists flashing as he comes toward the screen,
Gb
Sailing headlong into nothing
          Db
and disappearing
    Ab
Reappearing
Gb
Out there in the clearing
Db                       Db (full)
Floating down the slight breeze
Gb
That plays along the edge of the leaves
Db
It's you
Ab
It's you
Gb
it's you.

(1:42)
Db|--------------------
Ab|--------------------
F |--------------------
Db|-------0-----0------
Ab|--------------------
Db|-0-5h7---5h7---5h7--

    + 1 + 2 + 3 + 4 +

(1:44)
Db|-------------------------------------------------------------------
Ab|-------------------------------------------------------------------
F |-----------0-------------------------------------------------------
Db|-0-------------------0-----0---------0---------------0-----0-------
Ab|-0-----------------------------------------------------------------
Db|-----0---------0-5h7---5h7---5h7-5---------5---5-5h7---5h7---5h7---

    1 + 2 + 3 + 4 + 1 + 2 + 3 + 4 + 1 + 2 + 3 + 4 + 1 + 2 + 3 + 4 +

(1:52)
Db|-------------------------------------------------------------------
Ab|-----0-------------------------------------------------------------
F |-------------------------------------0-----------------------------
Db|-----------0---------------0---------------0---------0-----0-------
Ab|-------------------------------------------------------------------
Db|-0-------------0-5h7---5h7---5h7-5---------------5h7---5h7---5h7---

    1 + 2 + 3 + 4 + 1 + 2 + 3 + 4 + 1 + 2 + 3 + 4 + 1 + 2 + 3 + 4 +

(2:01)
Db|-------------------------------------------------------------------
Ab|-------------------------------------------------------------------
F |-----------0-------------------------0-----------------------------
Db|-----0-----0---------0-----0-------------------------0-----0-------
Ab|-----------0-------------------------------------------------------
Db|-0-------------0-5h7---5h7---5h7-5-------------5-5h7---5h7---5h7---

    1 + 2 + 3 + 4 + 1 + 2 + 3 + 4 + 1 + 2 + 3 + 4 + 1 + 2 + 3 + 4 +

(2:09)
Db|-------------------------------------------------------------------
Ab|-------------------------------------------------------------------
F |-------------------------------------------0-----------------------
Db|-0---------0---------0-----0-------------------------0-----0-------
Ab|-------------------------------------------------------------------
Db|-----0---------0-5h7---5h7---5h7-5-------------5-5h7---5h7---5h7---

    1 + 2 + 3 + 4 + 1 + 2 + 3 + 4 + 1 + 2 + 3 + 4 + 1 + 2 + 3 + 4 +

(2:17)
Db|-------------------------------------------------------------------
Ab|-------------------------------------------------------------------
F |-------------------------------------0-----------------------------
Db|-----0---------------0-----0---------------0---------0-----0-------
Ab|-----------0-------------------------------------------------------
Db|-0-------------0-5h7---5h7---5h7-5-------------5-5h7---5h7---5h7---

    1 + 2 + 3 + 4 + 1 + 2 + 3 + 4 + 1 + 2 + 3 + 4 + 1 + 2 + 3 + 4 +

(2:25)
Db|-------------------------------------------------------------------
Ab|-------------------------------------------------------------------
F |-----0-----------------------------x-0-----------------------------
Db|-----------0---------0-----0-------------------------0-----0-------
Ab|---------------------------------------------x-x-------------------
Db|-0-------------0-5h7---5h7---5h7-5---------5-----5h7---5h7---5h7---

    1 + 2 + 3 + 4 + 1 + 2 + 3 + 4 + 1 + 2 + 3 + 4 + 1 + 2 + 3 + 4 +

(2:33)
Db|-------------------------------------------------------------------
Ab|-------------------------------------------------------------------
F |-----0-----------------------------------------0-------------------
Db|-----------0---------0-----0---------0---------------0-----0-------
Ab|-------------------------------------------------------------------
Db|-0-------------7-5h7---5h7---5h7-5---------5-----5h7---5h7---5h7---

    1 + 2 + 3 + 4 + 1 + 2 + 3 + 4 + 1 + 2 + 3 + 4 + 1 + 2 + 3 + 4 +

(2:42)
Db|-----
Ab|-----
F |-0---
Db|-0---
Ab|-0---
Db|-0---
tabs/original_air-blue_gown.txt · Last modified: 2008/07/25 13:54 by lincolnic