User Tools

Site Tools


tabs:song_for_cleomenes

This is an old revision of the document!


"Song for Cleomenes"
The Mountain Goats
Beautiful Rat Sunset
Transcribed by Jon A.

Tune down 1 whole step (low to high: D/G/C/F/A/D)

A section:

D------------------------------------------------------x-x-x---x---x-x-x---x---x-x-x---x---x-x-x----
A--0---0-0-0---0---0-0-0---0---0-0-0---0---0-0-----0---x-x-x---x---x-x-x---x---x-x-x---x---x-x-x----
F--0---0-0-0---0---0-0-0---0---0-0-0---0---0-0-----0---x-x-x---x---x-x-x---x---x-x-x---x---x-x-x----
C--9-------0---7-------0---5-------0---4-------0---2---x-x-x---x---x-x-x---x---x-x-x---x---x-x-x----
G--9-------0---7-------0---5-------0---4-------0---2---x-x-x---x---x-x-x---x---x-x-x---x---x-x-x----
D--0-------0---0-------0---0-------0---0-------0---0---x-x-x---x---x-x-x---x---x-x-x---x---x-x-x----

   1 + 2 + 3 + 1 + 2 + 3 + 1 + 2 + 3 + 1 + 2 + 3 + 1 + 2 + 3 + 1 + 2 + 3 + 1 + 2 + 3 + 1 + 2 + 3 + 


B section (strum each chord for four counts of 3):

C     D
Em    G
C     D
Em

Break before second verse:

D------x-x-x---x---x-x-x---3---3-3-3---3---3-3-3---3---3-3-3---3---3-3-3---3---3-3-3---3-----------0--
A--0---x-x-x---x---x-x-x---x---x-x-x---x---x-x-x---x---x-x-x---x---x-x-x---x---x-x-x---x---0-0-0---0--
F--0---x-x-x---x---x-x-x---x---x-x-x---x---x-x-x---x---x-x-x---x---x-x-x---x---x-x-x---x---0-0-0---0--
C--2---x-x-x---x---x-x-x---x---x-x-x---x---x-x-x---x---x-x-x---x---x-x-x---x---x-x-x---x---0-0-0---2--
G--2---x-x-x---x---x-x-x---x---x-x-x---x---x-x-x---x---x-x-x---x---x-x-x---x---x-x-x---x---0-0-0---2--
D--0---x-x-x---x---x-x-x---x---x-x-x---x---x-x-x---x---x-x-x---x---x-x-x---x---x-x-x---x---0-0-0---0--

   1 + 2 + 3 + 1 + 2 + 3 + 1 + 2 + 3 + 1 + 2 + 3 + 1 + 2 + 3 + 1 + 2 + 3 + 1 + 2 + 3 + 1 + 2 + 3 + 1
tabs/song_for_cleomenes.1219280094.txt.gz · Last modified: 2008/08/20 17:54 by lincolnic