User Tools

Site Tools


tabs:this_year

This Year

i'm not sure about all parts [bridge?] of this song, 
but i [or you] will make this tab more complete once i am/you are.

A  C#m  D  A
A  E    D  A

(A)                        E
I broke free on a saturday morning.
          D               A
I put the pedal to the floor.
                         E
headed north on mills avenue,
             D             A
and listened to the engine roar.

A  C#m  D  A
A  E    D  A

(A)                             E
my broken house behind me and good things ahead,
               D                          A
a girl named cathy wants a little of my time.
                                  E
six cylinders underneath the hood crashing and kicking
         D                   A
ahhh listen to the engine whine.

CHORUS:

A                                     Esus4       D      A
I am going to make it through this year  if it kills me.
A                                     Esus4       D      A
I am going to make it through this year  if it kills me.


I played video games in a drunken haze
I was seventeen years young
hurt my knuckles punching the machines
the taste of scotch rich on my tongue.

and then cathy showed up and we hung out.
trading swigs from the bottle all bitter and clean
locking eyes, holding hands,
twin high maintenance machines.

CHORUS:

I am going to make it through this year if it kills me.
I am going to make it through this year if it kills me

BRIDGE:

(A)      F#m                     A
I drove home in the california dusk.
        F#m                   A
I could feel the alcohol inside of me hum.
            F#m                     A
picture the look on my stepfather's face,
D                           E
ready for the bad things to come.

I downshifted as I pulled into the driveway.
the motor screaming out stuck in second gear.
the scene ends badly as you might imagine,
in a cavalcade of anger and fear.
there will be feasting and dancing in jerusalem next year.

I am going to make it through this year if it kills me.
I am going to make it through this year if it kills me.


intro with bass line:

    A   A/b C#m   D/f# D/e A/c#/d/c#/b A  A/b E    D/a D/g# A

E|--0----0--4------2----2-------------0----0--0-----2----2--0--|
B|--2----2--5------3----3--2----2-2-2-2----2--0-----3----3--3--|
G|--2----2--6------2----2--2----2-2-2-2----2--1-----2----2--3--|
D|--2----2--6------4----2--2----2-2-2-2----2--2-----0----0--3--|
A|--0----2--4--------------4----5-4-2-0----2--2-----0-------0--|
E|--------------------------------------------0----------4-----|


**Added 01/2014**

I think this is an easier way to play the bass line: 

    A      C#m     D    C#               E      D       A
E|--0----0--4------5----4--0----------0--0------2-------0--|
B|--2----2--5------7----6--2----------2--0------3-------2--|
G|--2----2--6------7----6--2----------2--1------2-------2--|
D|--2----x--6------7----6--2----------0--2------0-------2--|
A|--0----2--4------5----4--0----------0--2-----------4--0--|
E|---------------------------------------0-----------------|

The tricky fingering is avoided with a few more bar chords. 
tabs/this_year.txt · Last modified: 2014/01/07 10:24 by lonepiner