User Tools

Site Tools


tabs:snow_owl
e ----0------0-------0------0-------0-----0----0------0------0-----0------0------0-
B ------0------0--------------0-------0----------0------0------------0------0------
G ---------------------------------------------------------------------------------
D -2------2--------2-----2------2-------2------------------------------------------
A ------------------------------------------0-----0--------0-----0------0------0---
E ---------------------------------------------------------------------------------



Repeat as necessary. I think this is right, it's the first tab I've ever done so dunno.


_______________________________________________________________________________________



v.2 tabbed by mega_omega
standard tuning

Guitar 1

e|---0-----0------------0-----0------------0-----0----------0-----0-------|
B|-----0-----0---0--------0-----0---0--------0-----0---0------0-----0---0-|
G|------------------------------------------------------------------------|
D|------------------------------------------------------------------------|
A|---------------------------------------0-----0-----0----0-----0-----0---|
E|-0-----0-----0------0-----0-----0---------------------------------------| Intro/Verse, some verses he stutters open on the high e and B


Guitar 2

e|-------------------------------------------------------|
B|-------------------------------------------------------|
G|-------------------------------------------------------|
D|-2-----2-----2------2-----2--4--6--6-----2--1--2--1--2-|
A|-------------------------------------------------------|
E|-------------------------------------------------------| This is done over Guitar 1 in the bit between verses


Guitar 1

e|---0---0-----0-------------0-----0-------|
B|---------0-----0---0---------0-----0---0-|
G|-----------------------------------------|
D|-2---------------------2-----------------|
A|-------------------------0-----0-----0---|
E|-----0-----0-----0-------0---------------| "And here, where it all stops for good. Where the cool waters run."
                                                                                
Guitar 1

e|---0-----0-----------0-----0-----------0-----0-------|
B|-----0-----0---0-------0-----0---0-------0-----0---0-|
G|-----------------------------------------------------|
D|-----------------------------------------------------|
A|-------------------0-----0-----0---------------------|
E|-2-----2-----2-----------------------0-----0-----0---|"Thought I saw a mouse kicking in your beak, it was only a skeleton"


Lyrics: 

You came down from heaven to the branch outside my window
Your feathers were the color of snow
The dice were loaded against us ever seeing each other
But one of us had nowhere else to go

In your eyes were all the colors that the rainbow forgot
Your wingspan was three feet wide or better
With your voice practicing notes from time's own beginning
You took apart the alphabet letter by letter

And here where it all stops for good
Where the cool waters run
Thought i saw a mouse kicking in your beak
It was only a skeleton
tabs/snow_owl.txt · Last modified: 2014/05/31 13:31 by 36_chambers