User Tools

Site Tools


tabs:snow_owl

Snow Owl

tabbed by mega_omega and Rosa

Intro/Verse:

e|:---0-----0----------0-----0-------|---0-----0----------0-----0-------:|
B|:-----0-----0---0------0-----0---0-|-----0-----0---0------0-----0---0-:|
G|:----------------------------------|----------------------------------:|
D|:-2-----2-----2----2-----2-----2---|----------------------------------:|
A|:----------------------------------|-0-----0-----0----0-----0-----0---:|
E|:(0)-------------------------------|----------------------------------:|

Between verses riff (in the recording its a 2nd guitar, I've tried to combine them):

e|---0-----0-----0-----0---------|---0-----0-----0-----0---------|-------|---0-----0-----0-----0-------|
B|-----0-----0-----0-----0-------|-----0-----0-----0-----0-------|(repeat|-----0-----0-----0-----0-----|
G|-------------------------------|-------------------------------|-first-|-----------------------------|
D|-2-----2-----2-----2-----2-4-6-|-2-----2-----2-----2-----2-4-6-|--bar)-|-2-----2-----2-----1-----2-1-|
A|-------------------------------|-0----(0)---(0)---(0)---(0)----|-------|-0----(0)---(0)---(0)---(0)--|
E|-0-----------------------------|-------------------------------|-------|-----------------------------|

"Thought I saw a mouse kicking in your beak, it was only a skeleton":

e|---0-----0----------0-----0-------|---0-----0-------|
B|-----0-----0---0------0-----0---0-|-----0-----0---0-|
G|----------------------------------|-----------------| (Go into the between verses riff here)
D|-2-----2-----2--------------------|-----------------|
A|------------------2-----2-----2---|-0-----0-----0---|
E|----------------------------------|-----------------|

You came down from heaven to the branch outside my window
Your feathers were the color of snow
The dice were loaded against us ever seeing each other
But one of us had nowhere else to go

In your eyes were all the colors that the rainbow forgot
Your wingspan was three feet wide or better
With your voice practicing notes from time's own beginning
You took apart the alphabet letter by letter

And here where it all stops for good, where the cool waters run
Thought i saw a mouse kicking in your beak, it was only a skeleton
tabs/snow_owl.txt · Last modified: 2018/04/22 23:11 by acab_ftp