User Tools

Site Tools


tabs:snow_song
Fat E string is tuned down 5 half-steps to make BADGBe.
Capo on 1. Everything is relative to the capo.

A   :-02220
D6* :-0020-
Bm7*:-2020-
D*  :-0023-
E*  :-22100


Riff_1:
e:---------------------
B:--2-3-2-0-2-0---(0)--
G:--------------2--2---
D:----------------(0)--
A:----------------(0)--
B:---------------------

Riff_2:
e:---------------------
B:--2-3-2-0-2-0---(0)--
G:-----------------2---
D:--------------4-(0)--
A:----------------(0)--
B:---------------------

Riff_3:
e:-----------
B:-----------
G:-----------
D:-----------
A:-----------
B:--0-2-3-5--

Intro:

A Riff_1 D6* Riff_3
A Riff_2 D6* Riff_3

A		   D6* Riff_3
  what cars there are
A	      D6*   Riff_3
  go by like snails
A		   D6*
  and ice crystals shine
A		   D6*
  on the staircase's handrails

A	       D6* Riff_3
  the quiet air
A		     D6*   Riff_3
  is worth some discussion
A		   D6*
  as the windows crack
A		    D6*
  and the cold is crushing.

A			Bm7*		   D*
 they've shut down the roads to the coast.
       A		 Bm7*	    D*
there's white streets as far as the eye can see
		    A
and I'd just as soon
	     Bm7*		D*
make you disappear as look at you
	A     Bm7*	 D*
but I draw you close to me.

	    A
how do you feel about that?
	    E
how do you feel about that?

A Riff_1 D6* Riff_3
A Riff_1 D6* Riff_3
A Riff_1 D6* Riff_3
A Riff_1 D6* Riff_3
A
tabs/snow_song.txt · Last modified: 2014/04/14 21:19 by badposture